ISO-10303-21;
HEADER;
FILE_DESCRIPTION((''),'2;1');
FILE_NAME('M-BASE-H','2020-11-05T',('Administrator'),(''),
'CREO PARAMETRIC BY PTC INC, 2015290','CREO PARAMETRIC BY PTC INC, 2015290','');
FILE_SCHEMA(('CONFIG_CONTROL_DESIGN'));
ENDSEC;
DATA;
#1=DIRECTION('',(0.E0,1.E0,0.E0));
#2=VECTOR('',#1,1.E1);
#3=CARTESIAN_POINT('',(1.79832E1,-5.E0,-1.24968E1));
#4=LINE('',#3,#2);
#5=DIRECTION('',(-1.E0,0.E0,0.E0));
#6=VECTOR('',#5,4.59232E1);
#7=CARTESIAN_POINT('',(1.79832E1,5.E0,-1.24968E1));
#8=LINE('',#7,#6);
#9=DIRECTION('',(1.E0,0.E0,0.E0));
#10=VECTOR('',#9,4.59232E1);
#11=CARTESIAN_POINT('',(-2.794E1,-5.E0,-1.24968E1));
#12=LINE('',#11,#10);
#13=CARTESIAN_POINT('',(1.778E1,5.E0,0.E0));
#14=DIRECTION('',(0.E0,-1.E0,0.E0));
#15=DIRECTION('',(0.E0,0.E0,-1.E0));
#16=AXIS2_PLACEMENT_3D('',#13,#14,#15);
#18=CARTESIAN_POINT('',(1.778E1,5.E0,0.E0));
#19=DIRECTION('',(0.E0,-1.E0,0.E0));
#20=DIRECTION('',(0.E0,0.E0,1.E0));
#21=AXIS2_PLACEMENT_3D('',#18,#19,#20);
#23=CARTESIAN_POINT('',(1.79832E1,5.E0,0.E0));
#24=DIRECTION('',(0.E0,1.E0,0.E0));
#25=DIRECTION('',(0.E0,0.E0,1.E0));
#26=AXIS2_PLACEMENT_3D('',#23,#24,#25);
#28=DIRECTION('',(0.E0,0.E0,1.E0));
#29=VECTOR('',#28,9.1313E0);
#30=CARTESIAN_POINT('',(-2.794E1,5.E0,3.3655E0));
#31=LINE('',#30,#29);
#32=CARTESIAN_POINT('',(0.E0,5.E0,0.E0));
#33=DIRECTION('',(0.E0,-1.E0,0.E0));
#34=DIRECTION('',(0.E0,0.E0,-1.E0));
#35=AXIS2_PLACEMENT_3D('',#32,#33,#34);
#37=DIRECTION('',(0.E0,-1.E0,0.E0));
#38=VECTOR('',#37,2.66702E0);
#39=CARTESIAN_POINT('',(1.778E1,5.E0,-3.3655E0));
#40=LINE('',#39,#38);
#41=DIRECTION('',(0.E0,-1.E0,0.E0));
#42=VECTOR('',#41,2.66702E0);
#43=CARTESIAN_POINT('',(1.778E1,5.E0,3.3655E0));
#44=LINE('',#43,#42);
#45=CARTESIAN_POINT('',(1.778E1,2.33298E0,0.E0));
#46=DIRECTION('',(0.E0,-1.E0,0.E0));
#47=DIRECTION('',(0.E0,0.E0,1.E0));
#48=AXIS2_PLACEMENT_3D('',#45,#46,#47);
#50=CARTESIAN_POINT('',(1.778E1,2.33298E0,0.E0));
#51=DIRECTION('',(0.E0,-1.E0,0.E0));
#52=DIRECTION('',(0.E0,0.E0,-1.E0));
#53=AXIS2_PLACEMENT_3D('',#50,#51,#52);
#55=CARTESIAN_POINT('',(1.778E1,2.33298E0,0.E0));
#56=DIRECTION('',(0.E0,1.E0,0.E0));
#57=DIRECTION('',(0.E0,0.E0,1.E0));
#58=AXIS2_PLACEMENT_3D('',#55,#56,#57);
#60=CARTESIAN_POINT('',(1.778E1,2.33298E0,0.E0));
#61=DIRECTION('',(0.E0,1.E0,0.E0));
#62=DIRECTION('',(0.E0,0.E0,-1.E0));
#63=AXIS2_PLACEMENT_3D('',#60,#61,#62);
#65=DIRECTION('',(0.E0,1.E0,0.E0));
#66=VECTOR('',#65,6.95198E0);
#67=CARTESIAN_POINT('',(1.778E1,-4.619E0,-5.1562E0));
#68=LINE('',#67,#66);
#69=DIRECTION('',(0.E0,1.E0,0.E0));
#70=VECTOR('',#69,6.95198E0);
#71=CARTESIAN_POINT('',(1.778E1,-4.619E0,5.1562E0));
#72=LINE('',#71,#70);
#73=DIRECTION('',(0.E0,0.E0,-1.E0));
#74=VECTOR('',#73,3.7846E0);
#75=CARTESIAN_POINT('',(-2.794E1,-4.619E0,-3.3655E0));
#76=LINE('',#75,#74);
#77=DIRECTION('',(-1.E0,0.E0,0.E0));
#78=VECTOR('',#77,2.794E1);
#79=CARTESIAN_POINT('',(0.E0,-4.619E0,-3.3655E0));
#80=LINE('',#79,#78);
#81=CARTESIAN_POINT('',(0.E0,-4.619E0,0.E0));
#82=DIRECTION('',(0.E0,1.E0,0.E0));
#83=DIRECTION('',(0.E0,0.E0,1.E0));
#84=AXIS2_PLACEMENT_3D('',#81,#82,#83);
#86=DIRECTION('',(1.E0,0.E0,0.E0));
#87=VECTOR('',#86,2.794E1);
#88=CARTESIAN_POINT('',(-2.794E1,-4.619E0,3.3655E0));
#89=LINE('',#88,#87);
#90=DIRECTION('',(-1.E0,0.E0,0.E0));
#91=VECTOR('',#90,4.572E1);
#92=CARTESIAN_POINT('',(1.778E1,-4.619E0,7.1501E0));
#93=LINE('',#92,#91);
#94=CARTESIAN_POINT('',(1.778E1,-4.619E0,0.E0));
#95=DIRECTION('',(0.E0,-1.E0,0.E0));
#96=DIRECTION('',(0.E0,0.E0,-1.E0));
#97=AXIS2_PLACEMENT_3D('',#94,#95,#96);
#99=CARTESIAN_POINT('',(8.89E0,-4.619E0,0.E0));
#100=DIRECTION('',(0.E0,1.E0,0.E0));
#101=DIRECTION('',(0.E0,0.E0,1.E0));
#102=AXIS2_PLACEMENT_3D('',#99,#100,#101);
#104=CARTESIAN_POINT('',(8.89E0,-4.619E0,0.E0));
#105=DIRECTION('',(0.E0,1.E0,0.E0));
#106=DIRECTION('',(0.E0,0.E0,-1.E0));
#107=AXIS2_PLACEMENT_3D('',#104,#105,#106);
#109=CARTESIAN_POINT('',(1.778E1,-4.619E0,0.E0));
#110=DIRECTION('',(0.E0,1.E0,0.E0));
#111=DIRECTION('',(0.E0,0.E0,-1.E0));
#112=AXIS2_PLACEMENT_3D('',#109,#110,#111);
#114=CARTESIAN_POINT('',(1.778E1,-4.619E0,0.E0));
#115=DIRECTION('',(0.E0,1.E0,0.E0));
#116=DIRECTION('',(0.E0,0.E0,1.E0));
#117=AXIS2_PLACEMENT_3D('',#114,#115,#116);
#119=DIRECTION('',(0.E0,1.E0,0.E0));
#120=VECTOR('',#119,3.81E-1);
#121=CARTESIAN_POINT('',(-2.794E1,-5.E0,-7.1501E0));
#122=LINE('',#121,#120);
#123=DIRECTION('',(0.E0,-1.E0,0.E0));
#124=VECTOR('',#123,1.E1);
#125=CARTESIAN_POINT('',(-2.794E1,5.E0,-1.24968E1));
#126=LINE('',#125,#124);
#127=DIRECTION('',(0.E0,0.E0,-1.E0));
#128=VECTOR('',#127,9.1313E0);
#129=CARTESIAN_POINT('',(-2.794E1,5.E0,-3.3655E0));
#130=LINE('',#129,#128);
#131=DIRECTION('',(-1.E0,0.E0,0.E0));
#132=VECTOR('',#131,4.572E1);
#133=CARTESIAN_POINT('',(1.778E1,-4.619E0,-7.1501E0));
#134=LINE('',#133,#132);
#135=CARTESIAN_POINT('',(1.79832E1,-5.E0,0.E0));
#136=DIRECTION('',(0.E0,-1.E0,0.E0));
#137=DIRECTION('',(0.E0,0.E0,-1.E0));
#138=AXIS2_PLACEMENT_3D('',#135,#136,#137);
#140=DIRECTION('',(0.E0,0.E0,-1.E0));
#141=VECTOR('',#140,5.3467E0);
#142=CARTESIAN_POINT('',(-2.794E1,-5.E0,-7.1501E0));
#143=LINE('',#142,#141);
#144=DIRECTION('',(-1.E0,0.E0,0.E0));
#145=VECTOR('',#144,4.572E1);
#146=CARTESIAN_POINT('',(1.778E1,-5.E0,-7.1501E0));
#147=LINE('',#146,#145);
#148=CARTESIAN_POINT('',(1.778E1,-5.E0,0.E0));
#149=DIRECTION('',(0.E0,1.E0,0.E0));
#150=DIRECTION('',(0.E0,0.E0,1.E0));
#151=AXIS2_PLACEMENT_3D('',#148,#149,#150);
#153=DIRECTION('',(0.E0,-1.E0,0.E0));
#154=VECTOR('',#153,3.81E-1);
#155=CARTESIAN_POINT('',(1.778E1,-4.619E0,-7.1501E0));
#156=LINE('',#155,#154);
#157=DIRECTION('',(0.E0,1.E0,0.E0));
#158=VECTOR('',#157,3.81E-1);
#159=CARTESIAN_POINT('',(1.778E1,-5.E0,7.1501E0));
#160=LINE('',#159,#158);
#161=DIRECTION('',(-1.E0,0.E0,0.E0));
#162=VECTOR('',#161,4.572E1);
#163=CARTESIAN_POINT('',(1.778E1,-5.E0,7.1501E0));
#164=LINE('',#163,#162);
#165=DIRECTION('',(0.E0,1.E0,0.E0));
#166=VECTOR('',#165,3.81E-1);
#167=CARTESIAN_POINT('',(-2.794E1,-5.E0,7.1501E0));
#168=LINE('',#167,#166);
#169=DIRECTION('',(0.E0,0.E0,1.E0));
#170=VECTOR('',#169,3.7846E0);
#171=CARTESIAN_POINT('',(-2.794E1,-4.619E0,3.3655E0));
#172=LINE('',#171,#170);
#173=DIRECTION('',(0.E0,-1.E0,0.E0));
#174=VECTOR('',#173,9.619E0);
#175=CARTESIAN_POINT('',(-2.794E1,5.E0,3.3655E0));
#176=LINE('',#175,#174);
#177=DIRECTION('',(0.E0,0.E0,1.E0));
#178=VECTOR('',#177,5.3467E0);
#179=CARTESIAN_POINT('',(-2.794E1,-5.E0,7.1501E0));
#180=LINE('',#179,#178);
#181=DIRECTION('',(1.E0,0.E0,0.E0));
#182=VECTOR('',#181,2.794E1);
#183=CARTESIAN_POINT('',(-2.794E1,5.E0,3.3655E0));
#184=LINE('',#183,#182);
#185=DIRECTION('',(0.E0,-1.E0,0.E0));
#186=VECTOR('',#185,9.619E0);
#187=CARTESIAN_POINT('',(0.E0,5.E0,-3.3655E0));
#188=LINE('',#187,#186);
#189=DIRECTION('',(0.E0,1.E0,0.E0));
#190=VECTOR('',#189,9.619E0);
#191=CARTESIAN_POINT('',(0.E0,-4.619E0,3.3655E0));
#192=LINE('',#191,#190);
#193=DIRECTION('',(0.E0,-1.E0,0.E0));
#194=VECTOR('',#193,9.619E0);
#195=CARTESIAN_POINT('',(-2.794E1,5.E0,-3.3655E0));
#196=LINE('',#195,#194);
#197=DIRECTION('',(-1.E0,0.E0,0.E0));
#198=VECTOR('',#197,2.794E1);
#199=CARTESIAN_POINT('',(0.E0,5.E0,-3.3655E0));
#200=LINE('',#199,#198);
#201=DIRECTION('',(0.E0,1.E0,0.E0));
#202=VECTOR('',#201,1.E1);
#203=CARTESIAN_POINT('',(1.79832E1,-5.E0,1.24968E1));
#204=LINE('',#203,#202);
#205=DIRECTION('',(-1.E0,0.E0,0.E0));
#206=VECTOR('',#205,4.59232E1);
#207=CARTESIAN_POINT('',(1.79832E1,-5.E0,1.24968E1));
#208=LINE('',#207,#206);
#209=DIRECTION('',(0.E0,-1.E0,0.E0));
#210=VECTOR('',#209,1.E1);
#211=CARTESIAN_POINT('',(-2.794E1,5.E0,1.24968E1));
#212=LINE('',#211,#210);
#213=DIRECTION('',(1.E0,0.E0,0.E0));
#214=VECTOR('',#213,4.59232E1);
#215=CARTESIAN_POINT('',(-2.794E1,5.E0,1.24968E1));
#216=LINE('',#215,#214);
#217=DIRECTION('',(0.E0,1.E0,0.E0));
#218=VECTOR('',#217,2.54E-1);
#219=CARTESIAN_POINT('',(8.89E0,-4.619E0,7.9375E-1));
#220=LINE('',#219,#218);
#221=DIRECTION('',(0.E0,1.E0,0.E0));
#222=VECTOR('',#221,2.54E-1);
#223=CARTESIAN_POINT('',(8.89E0,-4.619E0,-7.9375E-1));
#224=LINE('',#223,#222);
#225=CARTESIAN_POINT('',(8.89E0,-4.365E0,0.E0));
#226=DIRECTION('',(0.E0,-1.E0,0.E0));
#227=DIRECTION('',(0.E0,0.E0,-1.E0));
#228=AXIS2_PLACEMENT_3D('',#225,#226,#227);
#230=CARTESIAN_POINT('',(8.89E0,-4.365E0,0.E0));
#231=DIRECTION('',(0.E0,-1.E0,0.E0));
#232=DIRECTION('',(0.E0,0.E0,1.E0));
#233=AXIS2_PLACEMENT_3D('',#230,#231,#232);
#235=CARTESIAN_POINT('',(1.778E1,5.E0,3.3655E0));
#236=CARTESIAN_POINT('',(1.778E1,5.E0,-3.3655E0));
#237=VERTEX_POINT('',#235);
#238=VERTEX_POINT('',#236);
#239=CARTESIAN_POINT('',(1.778E1,2.33298E0,3.3655E0));
#240=VERTEX_POINT('',#239);
#241=CARTESIAN_POINT('',(8.89E0,-4.365E0,7.9375E-1));
#242=CARTESIAN_POINT('',(8.89E0,-4.365E0,-7.9375E-1));
#243=VERTEX_POINT('',#241);
#244=VERTEX_POINT('',#242);
#245=CARTESIAN_POINT('',(-2.794E1,5.E0,-1.24968E1));
#246=CARTESIAN_POINT('',(-2.794E1,-5.E0,-1.24968E1));
#247=VERTEX_POINT('',#245);
#248=VERTEX_POINT('',#246);
#249=CARTESIAN_POINT('',(8.89E0,-4.619E0,-7.9375E-1));
#250=CARTESIAN_POINT('',(8.89E0,-4.619E0,7.9375E-1));
#251=VERTEX_POINT('',#249);
#252=VERTEX_POINT('',#250);
#253=CARTESIAN_POINT('',(1.778E1,-4.619E0,5.1562E0));
#254=CARTESIAN_POINT('',(1.778E1,2.33298E0,5.1562E0));
#255=VERTEX_POINT('',#253);
#256=VERTEX_POINT('',#254);
#257=CARTESIAN_POINT('',(1.778E1,2.33298E0,-3.3655E0));
#258=VERTEX_POINT('',#257);
#259=CARTESIAN_POINT('',(1.778E1,-4.619E0,-5.1562E0));
#260=VERTEX_POINT('',#259);
#261=CARTESIAN_POINT('',(1.778E1,2.33298E0,-5.1562E0));
#262=VERTEX_POINT('',#261);
#263=CARTESIAN_POINT('',(1.778E1,-5.E0,7.1501E0));
#264=CARTESIAN_POINT('',(1.778E1,-5.E0,-7.1501E0));
#265=VERTEX_POINT('',#263);
#266=VERTEX_POINT('',#264);
#267=CARTESIAN_POINT('',(-2.794E1,-5.E0,-7.1501E0));
#268=VERTEX_POINT('',#267);
#269=CARTESIAN_POINT('',(0.E0,-4.619E0,3.3655E0));
#270=CARTESIAN_POINT('',(0.E0,5.E0,3.3655E0));
#271=VERTEX_POINT('',#269);
#272=VERTEX_POINT('',#270);
#273=CARTESIAN_POINT('',(0.E0,5.E0,-3.3655E0));
#274=CARTESIAN_POINT('',(0.E0,-4.619E0,-3.3655E0));
#275=VERTEX_POINT('',#273);
#276=VERTEX_POINT('',#274);
#277=CARTESIAN_POINT('',(-2.794E1,5.E0,3.3655E0));
#278=VERTEX_POINT('',#277);
#279=CARTESIAN_POINT('',(-2.794E1,-4.619E0,3.3655E0));
#280=VERTEX_POINT('',#279);
#281=CARTESIAN_POINT('',(-2.794E1,-4.619E0,7.1501E0));
#282=VERTEX_POINT('',#281);
#283=CARTESIAN_POINT('',(-2.794E1,-5.E0,7.1501E0));
#284=VERTEX_POINT('',#283);
#285=CARTESIAN_POINT('',(-2.794E1,-4.619E0,-3.3655E0));
#286=VERTEX_POINT('',#285);
#287=CARTESIAN_POINT('',(-2.794E1,-5.E0,1.24968E1));
#288=VERTEX_POINT('',#287);
#289=CARTESIAN_POINT('',(-2.794E1,5.E0,1.24968E1));
#290=VERTEX_POINT('',#289);
#291=CARTESIAN_POINT('',(1.778E1,-4.619E0,-7.1501E0));
#292=CARTESIAN_POINT('',(-2.794E1,-4.619E0,-7.1501E0));
#293=VERTEX_POINT('',#291);
#294=VERTEX_POINT('',#292);
#295=CARTESIAN_POINT('',(-2.794E1,5.E0,-3.3655E0));
#296=VERTEX_POINT('',#295);
#297=CARTESIAN_POINT('',(1.778E1,-4.619E0,7.1501E0));
#298=VERTEX_POINT('',#297);
#299=CARTESIAN_POINT('',(1.79832E1,5.E0,1.24968E1));
#300=CARTESIAN_POINT('',(1.79832E1,5.E0,-1.24968E1));
#301=VERTEX_POINT('',#299);
#302=VERTEX_POINT('',#300);
#303=CARTESIAN_POINT('',(1.79832E1,-5.E0,-1.24968E1));
#304=VERTEX_POINT('',#303);
#305=CARTESIAN_POINT('',(1.79832E1,-5.E0,1.24968E1));
#306=VERTEX_POINT('',#305);
#307=CARTESIAN_POINT('',(-4.829544129372E1,-5.E0,-1.24968E1));
#308=DIRECTION('',(0.E0,0.E0,-1.E0));
#309=DIRECTION('',(-1.E0,0.E0,0.E0));
#310=AXIS2_PLACEMENT_3D('',#307,#308,#309);
#311=PLANE('',#310);
#313=ORIENTED_EDGE('',*,*,#312,.T.);
#315=ORIENTED_EDGE('',*,*,#314,.T.);
#317=ORIENTED_EDGE('',*,*,#316,.T.);
#319=ORIENTED_EDGE('',*,*,#318,.T.);
#320=EDGE_LOOP('',(#313,#315,#317,#319));
#321=FACE_OUTER_BOUND('',#320,.F.);
#322=ADVANCED_FACE('',(#321),#311,.T.);
#323=CARTESIAN_POINT('',(1.79832E1,-1.8036E1,0.E0));
#324=DIRECTION('',(0.E0,1.E0,0.E0));
#325=DIRECTION('',(0.E0,0.E0,-1.E0));
#326=AXIS2_PLACEMENT_3D('',#323,#324,#325);
#327=CYLINDRICAL_SURFACE('',#326,1.24968E1);
#329=ORIENTED_EDGE('',*,*,#328,.T.);
#330=ORIENTED_EDGE('',*,*,#312,.F.);
#332=ORIENTED_EDGE('',*,*,#331,.T.);
#334=ORIENTED_EDGE('',*,*,#333,.T.);
#335=EDGE_LOOP('',(#329,#330,#332,#334));
#336=FACE_OUTER_BOUND('',#335,.F.);
#337=ADVANCED_FACE('',(#336),#327,.T.);
#338=CARTESIAN_POINT('',(-4.829544129372E1,5.E0,0.E0));
#339=DIRECTION('',(0.E0,1.E0,0.E0));
#340=DIRECTION('',(0.E0,0.E0,1.E0));
#341=AXIS2_PLACEMENT_3D('',#338,#339,#340);
#342=PLANE('',#341);
#343=ORIENTED_EDGE('',*,*,#328,.F.);
#345=ORIENTED_EDGE('',*,*,#344,.F.);
#347=ORIENTED_EDGE('',*,*,#346,.F.);
#349=ORIENTED_EDGE('',*,*,#348,.T.);
#351=ORIENTED_EDGE('',*,*,#350,.F.);
#353=ORIENTED_EDGE('',*,*,#352,.T.);
#355=ORIENTED_EDGE('',*,*,#354,.T.);
#356=ORIENTED_EDGE('',*,*,#314,.F.);
#357=EDGE_LOOP('',(#343,#345,#347,#349,#351,#353,#355,#356));
#358=FACE_OUTER_BOUND('',#357,.F.);
#360=ORIENTED_EDGE('',*,*,#359,.F.);
#362=ORIENTED_EDGE('',*,*,#361,.F.);
#363=EDGE_LOOP('',(#360,#362));
#364=FACE_BOUND('',#363,.F.);
#365=ADVANCED_FACE('',(#358,#364),#342,.T.);
#366=CARTESIAN_POINT('',(1.778E1,-5.E0,0.E0));
#367=DIRECTION('',(0.E0,1.E0,0.E0));
#368=DIRECTION('',(0.E0,0.E0,1.E0));
#369=AXIS2_PLACEMENT_3D('',#366,#367,#368);
#370=CYLINDRICAL_SURFACE('',#369,3.3655E0);
#372=ORIENTED_EDGE('',*,*,#371,.F.);
#373=ORIENTED_EDGE('',*,*,#359,.T.);
#375=ORIENTED_EDGE('',*,*,#374,.T.);
#377=ORIENTED_EDGE('',*,*,#376,.T.);
#378=EDGE_LOOP('',(#372,#373,#375,#377));
#379=FACE_OUTER_BOUND('',#378,.F.);
#380=ADVANCED_FACE('',(#379),#370,.F.);
#381=CARTESIAN_POINT('',(1.778E1,-5.E0,0.E0));
#382=DIRECTION('',(0.E0,1.E0,0.E0));
#383=DIRECTION('',(0.E0,0.E0,1.E0));
#384=AXIS2_PLACEMENT_3D('',#381,#382,#383);
#385=CYLINDRICAL_SURFACE('',#384,3.3655E0);
#387=ORIENTED_EDGE('',*,*,#386,.T.);
#388=ORIENTED_EDGE('',*,*,#374,.F.);
#389=ORIENTED_EDGE('',*,*,#361,.T.);
#390=ORIENTED_EDGE('',*,*,#371,.T.);
#391=EDGE_LOOP('',(#387,#388,#389,#390));
#392=FACE_OUTER_BOUND('',#391,.F.);
#393=ADVANCED_FACE('',(#392),#385,.F.);
#394=CARTESIAN_POINT('',(1.778E1,2.33298E0,0.E0));
#395=DIRECTION('',(0.E0,1.E0,0.E0));
#396=DIRECTION('',(0.E0,0.E0,1.E0));
#397=AXIS2_PLACEMENT_3D('',#394,#395,#396);
#398=PLANE('',#397);
#400=ORIENTED_EDGE('',*,*,#399,.F.);
#402=ORIENTED_EDGE('',*,*,#401,.F.);
#403=EDGE_LOOP('',(#400,#402));
#404=FACE_OUTER_BOUND('',#403,.F.);
#405=ORIENTED_EDGE('',*,*,#376,.F.);
#406=ORIENTED_EDGE('',*,*,#386,.F.);
#407=EDGE_LOOP('',(#405,#406));
#408=FACE_BOUND('',#407,.F.);
#409=ADVANCED_FACE('',(#404,#408),#398,.F.);
#410=CARTESIAN_POINT('',(1.778E1,2.33298E0,0.E0));
#411=DIRECTION('',(0.E0,-1.E0,0.E0));
#412=DIRECTION('',(0.E0,0.E0,-1.E0));
#413=AXIS2_PLACEMENT_3D('',#410,#411,#412);
#414=CYLINDRICAL_SURFACE('',#413,5.1562E0);
#415=ORIENTED_EDGE('',*,*,#399,.T.);
#417=ORIENTED_EDGE('',*,*,#416,.F.);
#419=ORIENTED_EDGE('',*,*,#418,.T.);
#421=ORIENTED_EDGE('',*,*,#420,.T.);
#422=EDGE_LOOP('',(#415,#417,#419,#421));
#423=FACE_OUTER_BOUND('',#422,.F.);
#424=ADVANCED_FACE('',(#423),#414,.F.);
#425=CARTESIAN_POINT('',(1.778E1,2.33298E0,0.E0));
#426=DIRECTION('',(0.E0,-1.E0,0.E0));
#427=DIRECTION('',(0.E0,0.E0,-1.E0));
#428=AXIS2_PLACEMENT_3D('',#425,#426,#427);
#429=CYLINDRICAL_SURFACE('',#428,5.1562E0);
#430=ORIENTED_EDGE('',*,*,#420,.F.);
#432=ORIENTED_EDGE('',*,*,#431,.T.);
#433=ORIENTED_EDGE('',*,*,#416,.T.);
#434=ORIENTED_EDGE('',*,*,#401,.T.);
#435=EDGE_LOOP('',(#430,#432,#433,#434));
#436=FACE_OUTER_BOUND('',#435,.F.);
#437=ADVANCED_FACE('',(#436),#429,.F.);
#438=CARTESIAN_POINT('',(0.E0,-4.619E0,0.E0));
#439=DIRECTION('',(0.E0,1.E0,0.E0));
#440=DIRECTION('',(0.E0,0.E0,1.E0));
#441=AXIS2_PLACEMENT_3D('',#438,#439,#440);
#442=PLANE('',#441);
#444=ORIENTED_EDGE('',*,*,#443,.F.);
#446=ORIENTED_EDGE('',*,*,#445,.F.);
#448=ORIENTED_EDGE('',*,*,#447,.F.);
#450=ORIENTED_EDGE('',*,*,#449,.F.);
#452=ORIENTED_EDGE('',*,*,#451,.T.);
#454=ORIENTED_EDGE('',*,*,#453,.F.);
#456=ORIENTED_EDGE('',*,*,#455,.F.);
#458=ORIENTED_EDGE('',*,*,#457,.T.);
#459=EDGE_LOOP('',(#444,#446,#448,#450,#452,#454,#456,#458));
#460=FACE_OUTER_BOUND('',#459,.F.);
#462=ORIENTED_EDGE('',*,*,#461,.F.);
#464=ORIENTED_EDGE('',*,*,#463,.F.);
#465=EDGE_LOOP('',(#462,#464));
#466=FACE_BOUND('',#465,.F.);
#467=ORIENTED_EDGE('',*,*,#418,.F.);
#468=ORIENTED_EDGE('',*,*,#431,.F.);
#469=EDGE_LOOP('',(#467,#468));
#470=FACE_BOUND('',#469,.F.);
#471=ADVANCED_FACE('',(#460,#466,#470),#442,.F.);
#472=CARTESIAN_POINT('',(-2.794E1,-5.E0,0.E0));
#473=DIRECTION('',(-1.E0,0.E0,0.E0));
#474=DIRECTION('',(0.E0,0.E0,1.E0));
#475=AXIS2_PLACEMENT_3D('',#472,#473,#474);
#476=PLANE('',#475);
#478=ORIENTED_EDGE('',*,*,#477,.F.);
#480=ORIENTED_EDGE('',*,*,#479,.T.);
#481=ORIENTED_EDGE('',*,*,#316,.F.);
#482=ORIENTED_EDGE('',*,*,#354,.F.);
#484=ORIENTED_EDGE('',*,*,#483,.T.);
#485=ORIENTED_EDGE('',*,*,#443,.T.);
#486=EDGE_LOOP('',(#478,#480,#481,#482,#484,#485));
#487=FACE_OUTER_BOUND('',#486,.F.);
#488=ADVANCED_FACE('',(#487),#476,.T.);
#489=CARTESIAN_POINT('',(-4.829544129372E1,-4.619E0,-7.1501E0));
#490=DIRECTION('',(0.E0,0.E0,-1.E0));
#491=DIRECTION('',(-1.E0,0.E0,0.E0));
#492=AXIS2_PLACEMENT_3D('',#489,#490,#491);
#493=PLANE('',#492);
#495=ORIENTED_EDGE('',*,*,#494,.T.);
#496=ORIENTED_EDGE('',*,*,#477,.T.);
#497=ORIENTED_EDGE('',*,*,#457,.F.);
#499=ORIENTED_EDGE('',*,*,#498,.T.);
#500=EDGE_LOOP('',(#495,#496,#497,#499));
#501=FACE_OUTER_BOUND('',#500,.F.);
#502=ADVANCED_FACE('',(#501),#493,.F.);
#503=CARTESIAN_POINT('',(-4.829544129372E1,-5.E0,0.E0));
#504=DIRECTION('',(0.E0,1.E0,0.E0));
#505=DIRECTION('',(0.E0,0.E0,1.E0));
#506=AXIS2_PLACEMENT_3D('',#503,#504,#505);
#507=PLANE('',#506);
#508=ORIENTED_EDGE('',*,*,#331,.F.);
#509=ORIENTED_EDGE('',*,*,#318,.F.);
#510=ORIENTED_EDGE('',*,*,#479,.F.);
#511=ORIENTED_EDGE('',*,*,#494,.F.);
#513=ORIENTED_EDGE('',*,*,#512,.F.);
#515=ORIENTED_EDGE('',*,*,#514,.T.);
#517=ORIENTED_EDGE('',*,*,#516,.T.);
#519=ORIENTED_EDGE('',*,*,#518,.F.);
#520=EDGE_LOOP('',(#508,#509,#510,#511,#513,#515,#517,#519));
#521=FACE_OUTER_BOUND('',#520,.F.);
#522=ADVANCED_FACE('',(#521),#507,.F.);
#523=CARTESIAN_POINT('',(1.778E1,-4.619E0,0.E0));
#524=DIRECTION('',(0.E0,-1.E0,0.E0));
#525=DIRECTION('',(0.E0,0.E0,-1.E0));
#526=AXIS2_PLACEMENT_3D('',#523,#524,#525);
#527=CYLINDRICAL_SURFACE('',#526,7.1501E0);
#528=ORIENTED_EDGE('',*,*,#512,.T.);
#529=ORIENTED_EDGE('',*,*,#498,.F.);
#530=ORIENTED_EDGE('',*,*,#455,.T.);
#532=ORIENTED_EDGE('',*,*,#531,.F.);
#533=EDGE_LOOP('',(#528,#529,#530,#532));
#534=FACE_OUTER_BOUND('',#533,.F.);
#535=ADVANCED_FACE('',(#534),#527,.F.);
#536=CARTESIAN_POINT('',(-4.829544129372E1,-4.619E0,7.1501E0));
#537=DIRECTION('',(0.E0,0.E0,-1.E0));
#538=DIRECTION('',(-1.E0,0.E0,0.E0));
#539=AXIS2_PLACEMENT_3D('',#536,#537,#538);
#540=PLANE('',#539);
#541=ORIENTED_EDGE('',*,*,#514,.F.);
#542=ORIENTED_EDGE('',*,*,#531,.T.);
#543=ORIENTED_EDGE('',*,*,#453,.T.);
#545=ORIENTED_EDGE('',*,*,#544,.F.);
#546=EDGE_LOOP('',(#541,#542,#543,#545));
#547=FACE_OUTER_BOUND('',#546,.F.);
#548=ADVANCED_FACE('',(#547),#540,.T.);
#549=CARTESIAN_POINT('',(-2.794E1,-5.E0,1.358275709530E-14));
#550=DIRECTION('',(1.E0,0.E0,0.E0));
#551=DIRECTION('',(0.E0,0.E0,-1.E0));
#552=AXIS2_PLACEMENT_3D('',#549,#550,#551);
#553=PLANE('',#552);
#554=ORIENTED_EDGE('',*,*,#544,.T.);
#555=ORIENTED_EDGE('',*,*,#451,.F.);
#557=ORIENTED_EDGE('',*,*,#556,.F.);
#558=ORIENTED_EDGE('',*,*,#346,.T.);
#560=ORIENTED_EDGE('',*,*,#559,.T.);
#561=ORIENTED_EDGE('',*,*,#516,.F.);
#562=EDGE_LOOP('',(#554,#555,#557,#558,#560,#561));
#563=FACE_OUTER_BOUND('',#562,.F.);
#564=ADVANCED_FACE('',(#563),#553,.F.);
#565=CARTESIAN_POINT('',(-4.829544129372E1,-5.E0,3.3655E0));
#566=DIRECTION('',(0.E0,0.E0,-1.E0));
#567=DIRECTION('',(-1.E0,0.E0,0.E0));
#568=AXIS2_PLACEMENT_3D('',#565,#566,#567);
#569=PLANE('',#568);
#570=ORIENTED_EDGE('',*,*,#449,.T.);
#572=ORIENTED_EDGE('',*,*,#571,.T.);
#573=ORIENTED_EDGE('',*,*,#348,.F.);
#574=ORIENTED_EDGE('',*,*,#556,.T.);
#575=EDGE_LOOP('',(#570,#572,#573,#574));
#576=FACE_OUTER_BOUND('',#575,.F.);
#577=ADVANCED_FACE('',(#576),#569,.T.);
#578=CARTESIAN_POINT('',(0.E0,-5.E0,0.E0));
#579=DIRECTION('',(0.E0,1.E0,0.E0));
#580=DIRECTION('',(0.E0,0.E0,1.E0));
#581=AXIS2_PLACEMENT_3D('',#578,#579,#580);
#582=CYLINDRICAL_SURFACE('',#581,3.3655E0);
#584=ORIENTED_EDGE('',*,*,#583,.F.);
#585=ORIENTED_EDGE('',*,*,#350,.T.);
#586=ORIENTED_EDGE('',*,*,#571,.F.);
#587=ORIENTED_EDGE('',*,*,#447,.T.);
#588=EDGE_LOOP('',(#584,#585,#586,#587));
#589=FACE_OUTER_BOUND('',#588,.F.);
#590=ADVANCED_FACE('',(#589),#582,.F.);
#591=CARTESIAN_POINT('',(-4.829544129372E1,-5.E0,-3.3655E0));
#592=DIRECTION('',(0.E0,0.E0,1.E0));
#593=DIRECTION('',(1.E0,0.E0,0.E0));
#594=AXIS2_PLACEMENT_3D('',#591,#592,#593);
#595=PLANE('',#594);
#596=ORIENTED_EDGE('',*,*,#445,.T.);
#597=ORIENTED_EDGE('',*,*,#483,.F.);
#598=ORIENTED_EDGE('',*,*,#352,.F.);
#599=ORIENTED_EDGE('',*,*,#583,.T.);
#600=EDGE_LOOP('',(#596,#597,#598,#599));
#601=FACE_OUTER_BOUND('',#600,.F.);
#602=ADVANCED_FACE('',(#601),#595,.T.);
#603=CARTESIAN_POINT('',(-4.829544129372E1,-5.E0,1.24968E1));
#604=DIRECTION('',(0.E0,0.E0,1.E0));
#605=DIRECTION('',(1.E0,0.E0,0.E0));
#606=AXIS2_PLACEMENT_3D('',#603,#604,#605);
#607=PLANE('',#606);
#608=ORIENTED_EDGE('',*,*,#333,.F.);
#609=ORIENTED_EDGE('',*,*,#518,.T.);
#610=ORIENTED_EDGE('',*,*,#559,.F.);
#611=ORIENTED_EDGE('',*,*,#344,.T.);
#612=EDGE_LOOP('',(#608,#609,#610,#611));
#613=FACE_OUTER_BOUND('',#612,.F.);
#614=ADVANCED_FACE('',(#613),#607,.T.);
#615=CARTESIAN_POINT('',(8.89E0,-4.619E0,0.E0));
#616=DIRECTION('',(0.E0,-1.E0,0.E0));
#617=DIRECTION('',(0.E0,0.E0,-1.E0));
#618=AXIS2_PLACEMENT_3D('',#615,#616,#617);
#619=CYLINDRICAL_SURFACE('',#618,7.9375E-1);
#621=ORIENTED_EDGE('',*,*,#620,.F.);
#622=ORIENTED_EDGE('',*,*,#461,.T.);
#624=ORIENTED_EDGE('',*,*,#623,.T.);
#626=ORIENTED_EDGE('',*,*,#625,.T.);
#627=EDGE_LOOP('',(#621,#622,#624,#626));
#628=FACE_OUTER_BOUND('',#627,.F.);
#629=ADVANCED_FACE('',(#628),#619,.F.);
#630=CARTESIAN_POINT('',(8.89E0,-4.619E0,0.E0));
#631=DIRECTION('',(0.E0,-1.E0,0.E0));
#632=DIRECTION('',(0.E0,0.E0,-1.E0));
#633=AXIS2_PLACEMENT_3D('',#630,#631,#632);
#634=CYLINDRICAL_SURFACE('',#633,7.9375E-1);
#636=ORIENTED_EDGE('',*,*,#635,.T.);
#637=ORIENTED_EDGE('',*,*,#623,.F.);
#638=ORIENTED_EDGE('',*,*,#463,.T.);
#639=ORIENTED_EDGE('',*,*,#620,.T.);
#640=EDGE_LOOP('',(#636,#637,#638,#639));
#641=FACE_OUTER_BOUND('',#640,.F.);
#642=ADVANCED_FACE('',(#641),#634,.F.);
#643=CARTESIAN_POINT('',(8.89E0,-4.365E0,0.E0));
#644=DIRECTION('',(0.E0,1.E0,0.E0));
#645=DIRECTION('',(0.E0,0.E0,1.E0));
#646=AXIS2_PLACEMENT_3D('',#643,#644,#645);
#647=PLANE('',#646);
#648=ORIENTED_EDGE('',*,*,#625,.F.);
#649=ORIENTED_EDGE('',*,*,#635,.F.);
#650=EDGE_LOOP('',(#648,#649));
#651=FACE_OUTER_BOUND('',#650,.F.);
#652=ADVANCED_FACE('',(#651),#647,.F.);
#653=CLOSED_SHELL('',(#322,#337,#365,#380,#393,#409,#424,#437,#471,#488,#502,
#522,#535,#548,#564,#577,#590,#602,#614,#629,#642,#652));
#654=MANIFOLD_SOLID_BREP('',#653);
#656=DIMENSIONAL_EXPONENTS(0.E0,0.E0,0.E0,0.E0,0.E0,0.E0,0.E0);
#658=PLANE_ANGLE_MEASURE_WITH_UNIT(PLANE_ANGLE_MEASURE(1.745329251994E-2),#657);
#659=(CONVERSION_BASED_UNIT('DEGREE',#658)NAMED_UNIT(*)PLANE_ANGLE_UNIT());
#661=UNCERTAINTY_MEASURE_WITH_UNIT(LENGTH_MEASURE(6.432142288122E-3),#655,
'closure',
'Maximum model space distance between geometric entities at asserted connectivities');
#662=(GEOMETRIC_REPRESENTATION_CONTEXT(3)GLOBAL_UNCERTAINTY_ASSIGNED_CONTEXT((
#661))GLOBAL_UNIT_ASSIGNED_CONTEXT((#655,#659,#660))REPRESENTATION_CONTEXT
('ID1','3'));
#664=APPLICATION_CONTEXT(
'CONFIGURATION CONTROLLED 3D DESIGNS OF MECHANICAL PARTS AND ASSEMBLIES');
#665=APPLICATION_PROTOCOL_DEFINITION('international standard',
'config_control_design',1994,#664);
#666=DESIGN_CONTEXT('',#664,'design');
#667=MECHANICAL_CONTEXT('',#664,'mechanical');
#668=PRODUCT('M-BASE-H','M-BASE-H','NOT SPECIFIED',(#667));
#669=PRODUCT_DEFINITION_FORMATION_WITH_SPECIFIED_SOURCE('1','LAST_VERSION',#668,
.MADE.);
#673=PRODUCT_CATEGORY('part','');
#674=PRODUCT_RELATED_PRODUCT_CATEGORY('detail','',(#668));
#675=PRODUCT_CATEGORY_RELATIONSHIP('','',#673,#674);
#676=SECURITY_CLASSIFICATION_LEVEL('unclassified');
#677=SECURITY_CLASSIFICATION('','',#676);
#678=CC_DESIGN_SECURITY_CLASSIFICATION(#677,(#669));
#679=APPROVAL_STATUS('approved');
#680=APPROVAL(#679,'');
#681=CC_DESIGN_APPROVAL(#680,(#677,#669,#670));
#682=CALENDAR_DATE(120,5,11);
#683=COORDINATED_UNIVERSAL_TIME_OFFSET(8,0,.AHEAD.);
#684=LOCAL_TIME(14,17,1.2E1,#683);
#685=DATE_AND_TIME(#682,#684);
#686=APPROVAL_DATE_TIME(#685,#680);
#687=DATE_TIME_ROLE('creation_date');
#688=CC_DESIGN_DATE_AND_TIME_ASSIGNMENT(#685,#687,(#670));
#689=DATE_TIME_ROLE('classification_date');
#690=CC_DESIGN_DATE_AND_TIME_ASSIGNMENT(#685,#689,(#677));
#691=PERSON('UNSPECIFIED','UNSPECIFIED',$,$,$,$);
#692=ORGANIZATION('UNSPECIFIED','UNSPECIFIED','UNSPECIFIED');
#693=PERSON_AND_ORGANIZATION(#691,#692);
#694=APPROVAL_ROLE('approver');
#695=APPROVAL_PERSON_ORGANIZATION(#693,#680,#694);
#696=PERSON_AND_ORGANIZATION_ROLE('creator');
#697=CC_DESIGN_PERSON_AND_ORGANIZATION_ASSIGNMENT(#693,#696,(#669,#670));
#698=PERSON_AND_ORGANIZATION_ROLE('design_supplier');
#699=CC_DESIGN_PERSON_AND_ORGANIZATION_ASSIGNMENT(#693,#698,(#669));
#700=PERSON_AND_ORGANIZATION_ROLE('classification_officer');
#701=CC_DESIGN_PERSON_AND_ORGANIZATION_ASSIGNMENT(#693,#700,(#677));
#702=PERSON_AND_ORGANIZATION_ROLE('design_owner');
#703=CC_DESIGN_PERSON_AND_ORGANIZATION_ASSIGNMENT(#693,#702,(#668));
#17=CIRCLE('',#16,3.3655E0);
#22=CIRCLE('',#21,3.3655E0);
#27=CIRCLE('',#26,1.24968E1);
#36=CIRCLE('',#35,3.3655E0);
#49=CIRCLE('',#48,5.1562E0);
#54=CIRCLE('',#53,5.1562E0);
#59=CIRCLE('',#58,3.3655E0);
#64=CIRCLE('',#63,3.3655E0);
#85=CIRCLE('',#84,3.3655E0);
#98=CIRCLE('',#97,7.1501E0);
#103=CIRCLE('',#102,7.9375E-1);
#108=CIRCLE('',#107,7.9375E-1);
#113=CIRCLE('',#112,5.1562E0);
#118=CIRCLE('',#117,5.1562E0);
#139=CIRCLE('',#138,1.24968E1);
#152=CIRCLE('',#151,7.1501E0);
#229=CIRCLE('',#228,7.9375E-1);
#234=CIRCLE('',#233,7.9375E-1);
#312=EDGE_CURVE('',#304,#302,#4,.T.);
#314=EDGE_CURVE('',#302,#247,#8,.T.);
#316=EDGE_CURVE('',#247,#248,#126,.T.);
#318=EDGE_CURVE('',#248,#304,#12,.T.);
#328=EDGE_CURVE('',#301,#302,#27,.T.);
#331=EDGE_CURVE('',#304,#306,#139,.T.);
#333=EDGE_CURVE('',#306,#301,#204,.T.);
#344=EDGE_CURVE('',#290,#301,#216,.T.);
#346=EDGE_CURVE('',#278,#290,#31,.T.);
#348=EDGE_CURVE('',#278,#272,#184,.T.);
#350=EDGE_CURVE('',#275,#272,#36,.T.);
#352=EDGE_CURVE('',#275,#296,#200,.T.);
#354=EDGE_CURVE('',#296,#247,#130,.T.);
#359=EDGE_CURVE('',#238,#237,#17,.T.);
#361=EDGE_CURVE('',#237,#238,#22,.T.);
#371=EDGE_CURVE('',#238,#258,#40,.T.);
#374=EDGE_CURVE('',#237,#240,#44,.T.);
#376=EDGE_CURVE('',#240,#258,#59,.T.);
#386=EDGE_CURVE('',#258,#240,#64,.T.);
#399=EDGE_CURVE('',#256,#262,#49,.T.);
#401=EDGE_CURVE('',#262,#256,#54,.T.);
#416=EDGE_CURVE('',#260,#262,#68,.T.);
#418=EDGE_CURVE('',#260,#255,#113,.T.);
#420=EDGE_CURVE('',#255,#256,#72,.T.);
#431=EDGE_CURVE('',#255,#260,#118,.T.);
#443=EDGE_CURVE('',#286,#294,#76,.T.);
#445=EDGE_CURVE('',#276,#286,#80,.T.);
#447=EDGE_CURVE('',#271,#276,#85,.T.);
#449=EDGE_CURVE('',#280,#271,#89,.T.);
#451=EDGE_CURVE('',#280,#282,#172,.T.);
#453=EDGE_CURVE('',#298,#282,#93,.T.);
#455=EDGE_CURVE('',#293,#298,#98,.T.);
#457=EDGE_CURVE('',#293,#294,#134,.T.);
#461=EDGE_CURVE('',#252,#251,#103,.T.);
#463=EDGE_CURVE('',#251,#252,#108,.T.);
#477=EDGE_CURVE('',#268,#294,#122,.T.);
#479=EDGE_CURVE('',#268,#248,#143,.T.);
#483=EDGE_CURVE('',#296,#286,#196,.T.);
#494=EDGE_CURVE('',#266,#268,#147,.T.);
#498=EDGE_CURVE('',#293,#266,#156,.T.);
#512=EDGE_CURVE('',#265,#266,#152,.T.);
#514=EDGE_CURVE('',#265,#284,#164,.T.);
#516=EDGE_CURVE('',#284,#288,#180,.T.);
#518=EDGE_CURVE('',#306,#288,#208,.T.);
#531=EDGE_CURVE('',#265,#298,#160,.T.);
#544=EDGE_CURVE('',#284,#282,#168,.T.);
#556=EDGE_CURVE('',#278,#280,#176,.T.);
#559=EDGE_CURVE('',#290,#288,#212,.T.);
#571=EDGE_CURVE('',#271,#272,#192,.T.);
#583=EDGE_CURVE('',#275,#276,#188,.T.);
#620=EDGE_CURVE('',#252,#243,#220,.T.);
#623=EDGE_CURVE('',#251,#244,#224,.T.);
#625=EDGE_CURVE('',#244,#243,#229,.T.);
#635=EDGE_CURVE('',#243,#244,#234,.T.);
#655=(LENGTH_UNIT()NAMED_UNIT(*)SI_UNIT(.MILLI.,.METRE.));
#657=(NAMED_UNIT(*)PLANE_ANGLE_UNIT()SI_UNIT($,.RADIAN.));
#660=(NAMED_UNIT(*)SI_UNIT($,.STERADIAN.)SOLID_ANGLE_UNIT());
#663=ADVANCED_BREP_SHAPE_REPRESENTATION('',(#654),#662);
#670=PRODUCT_DEFINITION('design','',#669,#666);
#671=PRODUCT_DEFINITION_SHAPE('','SHAPE FOR M-BASE-H.',#670);
#672=SHAPE_DEFINITION_REPRESENTATION(#671,#663);
ENDSEC;
END-ISO-10303-21;
